The Simpsons Theme Song – A Lydian Melody

Simpsons. Semua orang tahu mereka, dan semua orang mengenali musik tema. Apa yang kebanyakan orang tidak tahu adalah modus skala besar apa yang menjadi dasarnya. Lembaran musik yang dipublikasikan untuk Simpsons lagu tema mengklaim bahwa itu ditulis kunci C mayor. Saya mohon untuk berbeda. Tampaknya bagi saya bahwa itu sebenarnya dalam kunci G mayor menggunakan skala C Lydian. Untuk membuktikan pendapat saya, Anda perlu sedikit memahami tanda kunci.

Jika Anda tahu lingkaran kelima Anda dari teori musik, maka Anda akan tahu bahwa C mayor tidak memiliki benda tajam atau flat, kecuali kecelakaan dalam nada. Anda juga akan tahu bahwa kunci G mayor memiliki salah satu yang tajam (F #), sekali lagi, melarang kecelakaan apa pun dalam sebuah nada. Masalah saya dengan Simpsons; Tandatangan kunci tema adalah bahwa setiap F yang dimainkan adalah tidak disengaja (F #). Anda bisa mengatakan Simpsons Tema ada di kunci C Lydian, tetapi mengatakan bahwa itu C Major, bagi saya, adalah sebuah kesalahan.

Sekarang, saya tidak menulis musik, jelas, dan saya bukan orang yang menyapu royalti darinya. Jadi pendapat saya hanya itu, dan itu bernilai setiap sen yang Anda bayar untuk itu. Tapi saya lebih suka melihat bahwa nada itu sebenarnya dalam kunci G Major, yang, sekali lagi, memiliki satu yang tajam. Jika itu ditulis dengan cara ini, tidak akan ada aksitensi dalam melodi. Hanya untuk bersenang-senang saya akan memposting tablature skala Lydian untuk kunci C Lydian (Major G), dan kemudian saya akan memposting bagian dari tablature untuk bagian ini. Itu jelas bukan ditulis untuk gitar, tapi menyenangkan untuk bermain dan mendengarkannya. Lydian adalah salah satu mode yang paling jarang digunakan pada gitar, tapi Simpsons musik tema adalah bagian yang populer.

Berikut skala C Lydian yang menaik:

E | ------------------------------------------------ ----- 8--

B | ------------------------------------------ 8--10-- 12 -----
G | ----------------------------------- 9--11 --------- -------
D | ------------------------ 9--10--12 ----------------- ------
A | ------------- 9--10--12 ---------------------------- ------
E | --8--10--12 --------------------------------------- ------

… dan inilah skala C Lydian yang turun.

E | --8 --------------------------------------------- --------

B | ----- 12--10--8 ------------------------------------ ------
G | ---------------- 11--9 ---------------------------- -------
D | ----------------------- 12--10--9 ------------------ ------
A | ---------------------------------- 12--10--9 ------- ------
E | --------------------------------------------- 12-- 10--8--

Inilah melodi utama Simpsons lagu tema. Saya harus mencatat bahwa setiap dua tanda pisah setelah dua tanda hubung pertama setelah not melambangkan waktu istirahat ke 8 atau setengah ketukan (dalam waktu 4/4). Sebagai contoh,

"10 ------ 12"

akan menjadi 10 fret pada beat 1, maka half-beat dan 2nd beat kosong, dan fret kedua belas dimainkan pada beat 2 1/2.

E | ------------------------------------------------ ------------------

B | --------------------- 10--8 ----------------------- -----------------
G | ---------- 9 ---- 11 --------------- 9 ---------------- -----------------
D | --10 --------------------------------- 10 ----------- ----------------
A | ------------------------------------------- 12--9- -9--9--10 --------
E | ------------------------------------------------ ------------------
http://www.guitartabcreator.com

Saya harap Anda menikmati permainan ini sama seperti saya. Anda harus bermain-main dengan mode yang sangat unik ini untuk sementara dan mungkin Anda akan menemukan musik tema Anda sendiri.

Terima kasih, dan seperti biasa, memotong-motong besar!

Leave a Reply

Your email address will not be published. Required fields are marked *